ISO-10303-21;
HEADER;
FILE_DESCRIPTION(('Creo Elements/Direct Modeling STEP Export'),'2;1');
FILE_NAME(
'C:/Users/TECCAD~1/AppData/Local/Temp/0lndrp34e9mqgb14572/0lndrp34e9mqgb
34572','2017-12-19T13:42:02',(''),(''),
'PTC Creo Elements/Direct Modeling STEP processor for AP214 (Solid Model
)',
'PTC Creo Elements/Direct Modeling 19.0E  27-Jun-2016 (C) Parametric Tec
hnology GmbH','');
FILE_SCHEMA(('AUTOMOTIVE_DESIGN { 1 0 10303 214 1 1 1 1 }'));
ENDSEC;
DATA;
#10=CARTESIAN_POINT('',(0.,0.,4.99999999999998));
#20=DIRECTION('',(0.,0.,1.));
#30=DIRECTION('',(1.,0.,-0.));
#40=AXIS2_PLACEMENT_3D('',#10,#20,#30);
#50=CONICAL_SURFACE('',#40,11.8,0.785398163397444);
#60=CARTESIAN_POINT('',(-11.8,1.44508322299388E-15,4.99999999999998));
#70=DIRECTION('',(-0.707106781186544,8.65956056235489E-17,
0.707106781186551));
#80=VECTOR('',#70,16.6877200360026);
#90=LINE('',#60,#80);
#100=CARTESIAN_POINT('',(-11.8,1.44508322299388E-15,4.99999999999998));
#110=VERTEX_POINT('',#100);
#120=CARTESIAN_POINT('',(-12.8,1.56754790290861E-15,6.));
#130=VERTEX_POINT('',#120);
#140=EDGE_CURVE('',#110,#130,#90,.T.);
#150=ORIENTED_EDGE('',*,*,#140,.F.);
#160=CARTESIAN_POINT('',(0.,0.,6.));
#170=DIRECTION('',(-0.,-0.,-1.));
#180=DIRECTION('',(1.,0.,0.));
#190=AXIS2_PLACEMENT_3D('',#160,#170,#180);
#200=CIRCLE('',#190,12.8);
#210=CARTESIAN_POINT('',(12.8,0.,6.));
#220=VERTEX_POINT('',#210);
#230=EDGE_CURVE('',#130,#220,#200,.T.);
#240=ORIENTED_EDGE('',*,*,#230,.F.);
#250=CARTESIAN_POINT('',(11.8,0.,4.99999999999998));
#260=DIRECTION('',(0.707106781186544,0.,0.707106781186551));
#270=VECTOR('',#260,16.6877200360026);
#280=LINE('',#250,#270);
#290=CARTESIAN_POINT('',(11.8,0.,4.99999999999998));
#300=VERTEX_POINT('',#290);
#310=EDGE_CURVE('',#300,#220,#280,.T.);
#320=ORIENTED_EDGE('',*,*,#310,.T.);
#330=CARTESIAN_POINT('',(0.,0.,4.99999999999998));
#340=DIRECTION('',(0.,0.,1.));
#350=DIRECTION('',(1.,0.,0.));
#360=AXIS2_PLACEMENT_3D('',#330,#340,#350);
#370=CIRCLE('',#360,11.8);
#380=EDGE_CURVE('',#300,#110,#370,.T.);
#390=ORIENTED_EDGE('',*,*,#380,.F.);
#400=EDGE_LOOP('',(#390,#320,#240,#150));
#410=FACE_OUTER_BOUND('',#400,.T.);
#420=ADVANCED_FACE('',(#410),#50,.F.);
#430=CARTESIAN_POINT('',(0.,0.,0.));
#440=DIRECTION('',(0.,0.,-1.));
#450=DIRECTION('',(-1.,0.,-0.));
#460=AXIS2_PLACEMENT_3D('',#430,#440,#450);
#470=CONICAL_SURFACE('',#460,12.8,0.785398163397444);
#480=CARTESIAN_POINT('',(12.8,1.56754790290861E-15,0.));
#490=DIRECTION('',(0.707106781186544,8.65956056235489E-17,
-0.707106781186551));
#500=VECTOR('',#490,18.1019335983757);
#510=LINE('',#480,#500);
#520=CARTESIAN_POINT('',(11.8,1.44508322299388E-15,1.00000000000002));
#530=VERTEX_POINT('',#520);
#540=CARTESIAN_POINT('',(12.8,1.56754790290861E-15,0.));
#550=VERTEX_POINT('',#540);
#560=EDGE_CURVE('',#530,#550,#510,.T.);
#570=ORIENTED_EDGE('',*,*,#560,.F.);
#580=CARTESIAN_POINT('',(0.,0.,0.));
#590=DIRECTION('',(0.,0.,1.));
#600=DIRECTION('',(1.,0.,0.));
#610=AXIS2_PLACEMENT_3D('',#580,#590,#600);
#620=CIRCLE('',#610,12.8);
#630=CARTESIAN_POINT('',(-12.8,0.,0.));
#640=VERTEX_POINT('',#630);
#650=EDGE_CURVE('',#550,#640,#620,.T.);
#660=ORIENTED_EDGE('',*,*,#650,.F.);
#670=CARTESIAN_POINT('',(-12.8,0.,0.));
#680=DIRECTION('',(-0.707106781186544,0.,-0.707106781186551));
#690=VECTOR('',#680,18.1019335983757);
#700=LINE('',#670,#690);
#710=CARTESIAN_POINT('',(-11.8,0.,1.00000000000002));
#720=VERTEX_POINT('',#710);
#730=EDGE_CURVE('',#720,#640,#700,.T.);
#740=ORIENTED_EDGE('',*,*,#730,.T.);
#750=CARTESIAN_POINT('',(0.,0.,1.00000000000002));
#760=DIRECTION('',(-0.,-0.,-1.));
#770=DIRECTION('',(1.,0.,0.));
#780=AXIS2_PLACEMENT_3D('',#750,#760,#770);
#790=CIRCLE('',#780,11.8);
#800=EDGE_CURVE('',#720,#530,#790,.T.);
#810=ORIENTED_EDGE('',*,*,#800,.F.);
#820=EDGE_LOOP('',(#810,#740,#660,#570));
#830=FACE_OUTER_BOUND('',#820,.T.);
#840=ADVANCED_FACE('',(#830),#470,.F.);
#850=CARTESIAN_POINT('',(0.,0.,6.));
#860=DIRECTION('',(-0.,-0.,-1.));
#870=DIRECTION('',(-1.,0.,0.));
#880=AXIS2_PLACEMENT_3D('',#850,#860,#870);
#890=CYLINDRICAL_SURFACE('',#880,11.8);
#900=CARTESIAN_POINT('',(-11.8,0.,6.));
#910=DIRECTION('',(-0.,-0.,-1.));
#920=VECTOR('',#910,1.);
#930=LINE('',#900,#920);
#940=EDGE_CURVE('',#110,#720,#930,.T.);
#950=ORIENTED_EDGE('',*,*,#940,.T.);
#960=ORIENTED_EDGE('',*,*,#380,.T.);
#970=CARTESIAN_POINT('',(11.8,1.44508322299388E-15,6.));
#980=DIRECTION('',(-0.,-0.,-1.));
#990=VECTOR('',#980,1.);
#1000=LINE('',#970,#990);
#1010=EDGE_CURVE('',#300,#530,#1000,.T.);
#1020=ORIENTED_EDGE('',*,*,#1010,.F.);
#1030=ORIENTED_EDGE('',*,*,#800,.T.);
#1040=EDGE_LOOP('',(#1030,#1020,#960,#950));
#1050=FACE_OUTER_BOUND('',#1040,.T.);
#1060=ADVANCED_FACE('',(#1050),#890,.F.);
#1070=CARTESIAN_POINT('',(0.,0.,6.));
#1080=DIRECTION('',(0.,0.,1.));
#1090=DIRECTION('',(1.,0.,-0.));
#1100=AXIS2_PLACEMENT_3D('',#1070,#1080,#1090);
#1110=PLANE('',#1100);
#1120=EDGE_CURVE('',#220,#130,#200,.T.);
#1130=ORIENTED_EDGE('',*,*,#1120,.T.);
#1140=ORIENTED_EDGE('',*,*,#230,.T.);
#1150=EDGE_LOOP('',(#1140,#1130));
#1160=FACE_BOUND('',#1150,.T.);
#1170=CARTESIAN_POINT('',(1.54705955010468,-16.4273128279835,6.));
#1180=DIRECTION('',(0.866025403784438,0.5,0.));
#1190=VECTOR('',#1180,1000.);
#1200=LINE('',#1170,#1190);
#1210=CARTESIAN_POINT('',(1.54705955010468,-16.4273128279835,6.));
#1220=VERTEX_POINT('',#1210);
#1230=CARTESIAN_POINT('',(13.4529404498953,-9.5534492855497,6.));
#1240=VERTEX_POINT('',#1230);
#1250=EDGE_CURVE('',#1220,#1240,#1200,.T.);
#1260=ORIENTED_EDGE('',*,*,#1250,.T.);
#1270=CARTESIAN_POINT('',(0.,0.,6.));
#1280=DIRECTION('',(0.,0.,1.));
#1290=DIRECTION('',(1.,0.,0.));
#1300=AXIS2_PLACEMENT_3D('',#1270,#1280,#1290);
#1310=CIRCLE('',#1300,16.5);
#1320=CARTESIAN_POINT('',(-1.54705955010469,-16.4273128279835,6.));
#1330=VERTEX_POINT('',#1320);
#1340=EDGE_CURVE('',#1330,#1220,#1310,.T.);
#1350=ORIENTED_EDGE('',*,*,#1340,.T.);
#1360=CARTESIAN_POINT('',(-13.4529404498953,-9.55344928554972,6.));
#1370=DIRECTION('',(0.866025403784439,-0.5,0.));
#1380=VECTOR('',#1370,1000.);
#1390=LINE('',#1360,#1380);
#1400=CARTESIAN_POINT('',(-13.4529404498953,-9.55344928554972,6.));
#1410=VERTEX_POINT('',#1400);
#1420=EDGE_CURVE('',#1410,#1330,#1390,.T.);
#1430=ORIENTED_EDGE('',*,*,#1420,.T.);
#1440=CARTESIAN_POINT('',(0.,0.,6.));
#1450=DIRECTION('',(0.,0.,1.));
#1460=DIRECTION('',(1.,0.,0.));
#1470=AXIS2_PLACEMENT_3D('',#1440,#1450,#1460);
#1480=CIRCLE('',#1470,16.5);
#1490=CARTESIAN_POINT('',(-15.,-6.87386354243377,6.));
#1500=VERTEX_POINT('',#1490);
#1510=EDGE_CURVE('',#1500,#1410,#1480,.T.);
#1520=ORIENTED_EDGE('',*,*,#1510,.T.);
#1530=CARTESIAN_POINT('',(-15.,6.87386354243377,6.));
#1540=DIRECTION('',(0.,-1.,0.));
#1550=VECTOR('',#1540,1000.);
#1560=LINE('',#1530,#1550);
#1570=CARTESIAN_POINT('',(-15.,6.87386354243377,6.));
#1580=VERTEX_POINT('',#1570);
#1590=EDGE_CURVE('',#1580,#1500,#1560,.T.);
#1600=ORIENTED_EDGE('',*,*,#1590,.T.);
#1610=CARTESIAN_POINT('',(0.,0.,6.));
#1620=DIRECTION('',(0.,0.,1.));
#1630=DIRECTION('',(1.,0.,0.));
#1640=AXIS2_PLACEMENT_3D('',#1610,#1620,#1630);
#1650=CIRCLE('',#1640,16.5);
#1660=CARTESIAN_POINT('',(-13.4529404498953,9.55344928554969,6.));
#1670=VERTEX_POINT('',#1660);
#1680=EDGE_CURVE('',#1670,#1580,#1650,.T.);
#1690=ORIENTED_EDGE('',*,*,#1680,.T.);
#1700=CARTESIAN_POINT('',(-1.54705955010466,16.4273128279835,6.));
#1710=DIRECTION('',(-0.866025403784439,-0.5,0.));
#1720=VECTOR('',#1710,1000.);
#1730=LINE('',#1700,#1720);
#1740=CARTESIAN_POINT('',(-1.54705955010466,16.4273128279835,6.));
#1750=VERTEX_POINT('',#1740);
#1760=EDGE_CURVE('',#1750,#1670,#1730,.T.);
#1770=ORIENTED_EDGE('',*,*,#1760,.T.);
#1780=CARTESIAN_POINT('',(0.,0.,6.));
#1790=DIRECTION('',(0.,0.,1.));
#1800=DIRECTION('',(1.,0.,0.));
#1810=AXIS2_PLACEMENT_3D('',#1780,#1790,#1800);
#1820=CIRCLE('',#1810,16.5);
#1830=CARTESIAN_POINT('',(1.54705955010466,16.4273128279835,6.));
#1840=VERTEX_POINT('',#1830);
#1850=EDGE_CURVE('',#1840,#1750,#1820,.T.);
#1860=ORIENTED_EDGE('',*,*,#1850,.T.);
#1870=CARTESIAN_POINT('',(13.4529404498953,9.55344928554969,6.));
#1880=DIRECTION('',(-0.866025403784439,0.5,0.));
#1890=VECTOR('',#1880,1000.);
#1900=LINE('',#1870,#1890);
#1910=CARTESIAN_POINT('',(13.4529404498953,9.55344928554969,6.));
#1920=VERTEX_POINT('',#1910);
#1930=EDGE_CURVE('',#1920,#1840,#1900,.T.);
#1940=ORIENTED_EDGE('',*,*,#1930,.T.);
#1950=CARTESIAN_POINT('',(0.,0.,6.));
#1960=DIRECTION('',(0.,0.,1.));
#1970=DIRECTION('',(1.,0.,0.));
#1980=AXIS2_PLACEMENT_3D('',#1950,#1960,#1970);
#1990=CIRCLE('',#1980,16.5);
#2000=CARTESIAN_POINT('',(15.,6.87386354243376,6.));
#2010=VERTEX_POINT('',#2000);
#2020=EDGE_CURVE('',#2010,#1920,#1990,.T.);
#2030=ORIENTED_EDGE('',*,*,#2020,.T.);
#2040=CARTESIAN_POINT('',(15.,-6.87386354243376,6.));
#2050=DIRECTION('',(0.,1.,0.));
#2060=VECTOR('',#2050,1000.);
#2070=LINE('',#2040,#2060);
#2080=CARTESIAN_POINT('',(15.,-6.87386354243376,6.));
#2090=VERTEX_POINT('',#2080);
#2100=EDGE_CURVE('',#2090,#2010,#2070,.T.);
#2110=ORIENTED_EDGE('',*,*,#2100,.T.);
#2120=CARTESIAN_POINT('',(0.,0.,6.));
#2130=DIRECTION('',(0.,0.,1.));
#2140=DIRECTION('',(1.,0.,0.));
#2150=AXIS2_PLACEMENT_3D('',#2120,#2130,#2140);
#2160=CIRCLE('',#2150,16.5);
#2170=EDGE_CURVE('',#1240,#2090,#2160,.T.);
#2180=ORIENTED_EDGE('',*,*,#2170,.T.);
#2190=EDGE_LOOP('',(#2180,#2110,#2030,#1940,#1860,#1770,#1690,#1600,
#1520,#1430,#1350,#1260));
#2200=FACE_OUTER_BOUND('',#2190,.T.);
#2210=ADVANCED_FACE('',(#1160,#2200),#1110,.T.);
#2220=CARTESIAN_POINT('',(0.,0.,0.));
#2230=DIRECTION('',(0.,0.,1.));
#2240=DIRECTION('',(1.,0.,-0.));
#2250=AXIS2_PLACEMENT_3D('',#2220,#2230,#2240);
#2260=PLANE('',#2250);
#2270=ORIENTED_EDGE('',*,*,#650,.T.);
#2280=EDGE_CURVE('',#640,#550,#620,.T.);
#2290=ORIENTED_EDGE('',*,*,#2280,.T.);
#2300=EDGE_LOOP('',(#2290,#2270));
#2310=FACE_BOUND('',#2300,.T.);
#2320=CARTESIAN_POINT('',(15.,-6.87386354243376,0.));
#2330=DIRECTION('',(0.,1.,0.));
#2340=VECTOR('',#2330,1000.);
#2350=LINE('',#2320,#2340);
#2360=CARTESIAN_POINT('',(15.,-6.87386354243376,0.));
#2370=VERTEX_POINT('',#2360);
#2380=CARTESIAN_POINT('',(15.,6.87386354243376,0.));
#2390=VERTEX_POINT('',#2380);
#2400=EDGE_CURVE('',#2370,#2390,#2350,.T.);
#2410=ORIENTED_EDGE('',*,*,#2400,.F.);
#2420=CARTESIAN_POINT('',(0.,0.,0.));
#2430=DIRECTION('',(0.,0.,1.));
#2440=DIRECTION('',(1.,0.,0.));
#2450=AXIS2_PLACEMENT_3D('',#2420,#2430,#2440);
#2460=CIRCLE('',#2450,16.5);
#2470=CARTESIAN_POINT('',(13.4529404498953,9.55344928554969,0.));
#2480=VERTEX_POINT('',#2470);
#2490=EDGE_CURVE('',#2390,#2480,#2460,.T.);
#2500=ORIENTED_EDGE('',*,*,#2490,.F.);
#2510=CARTESIAN_POINT('',(13.4529404498953,9.55344928554969,0.));
#2520=DIRECTION('',(-0.866025403784439,0.5,0.));
#2530=VECTOR('',#2520,1000.);
#2540=LINE('',#2510,#2530);
#2550=CARTESIAN_POINT('',(1.54705955010466,16.4273128279835,0.));
#2560=VERTEX_POINT('',#2550);
#2570=EDGE_CURVE('',#2480,#2560,#2540,.T.);
#2580=ORIENTED_EDGE('',*,*,#2570,.F.);
#2590=CARTESIAN_POINT('',(0.,0.,0.));
#2600=DIRECTION('',(0.,0.,1.));
#2610=DIRECTION('',(1.,0.,0.));
#2620=AXIS2_PLACEMENT_3D('',#2590,#2600,#2610);
#2630=CIRCLE('',#2620,16.5);
#2640=CARTESIAN_POINT('',(-1.54705955010466,16.4273128279835,0.));
#2650=VERTEX_POINT('',#2640);
#2660=EDGE_CURVE('',#2560,#2650,#2630,.T.);
#2670=ORIENTED_EDGE('',*,*,#2660,.F.);
#2680=CARTESIAN_POINT('',(-1.54705955010466,16.4273128279835,0.));
#2690=DIRECTION('',(-0.866025403784439,-0.5,0.));
#2700=VECTOR('',#2690,1000.);
#2710=LINE('',#2680,#2700);
#2720=CARTESIAN_POINT('',(-13.4529404498953,9.55344928554969,0.));
#2730=VERTEX_POINT('',#2720);
#2740=EDGE_CURVE('',#2650,#2730,#2710,.T.);
#2750=ORIENTED_EDGE('',*,*,#2740,.F.);
#2760=CARTESIAN_POINT('',(0.,0.,0.));
#2770=DIRECTION('',(0.,0.,1.));
#2780=DIRECTION('',(1.,0.,0.));
#2790=AXIS2_PLACEMENT_3D('',#2760,#2770,#2780);
#2800=CIRCLE('',#2790,16.5);
#2810=CARTESIAN_POINT('',(-15.,6.87386354243377,0.));
#2820=VERTEX_POINT('',#2810);
#2830=EDGE_CURVE('',#2730,#2820,#2800,.T.);
#2840=ORIENTED_EDGE('',*,*,#2830,.F.);
#2850=CARTESIAN_POINT('',(-15.,6.87386354243377,0.));
#2860=DIRECTION('',(0.,-1.,0.));
#2870=VECTOR('',#2860,1000.);
#2880=LINE('',#2850,#2870);
#2890=CARTESIAN_POINT('',(-15.,-6.87386354243377,0.));
#2900=VERTEX_POINT('',#2890);
#2910=EDGE_CURVE('',#2820,#2900,#2880,.T.);
#2920=ORIENTED_EDGE('',*,*,#2910,.F.);
#2930=CARTESIAN_POINT('',(0.,0.,0.));
#2940=DIRECTION('',(0.,0.,1.));
#2950=DIRECTION('',(1.,0.,0.));
#2960=AXIS2_PLACEMENT_3D('',#2930,#2940,#2950);
#2970=CIRCLE('',#2960,16.5);
#2980=CARTESIAN_POINT('',(-13.4529404498953,-9.55344928554972,0.));
#2990=VERTEX_POINT('',#2980);
#3000=EDGE_CURVE('',#2900,#2990,#2970,.T.);
#3010=ORIENTED_EDGE('',*,*,#3000,.F.);
#3020=CARTESIAN_POINT('',(-13.4529404498953,-9.55344928554972,0.));
#3030=DIRECTION('',(0.866025403784439,-0.5,0.));
#3040=VECTOR('',#3030,1000.);
#3050=LINE('',#3020,#3040);
#3060=CARTESIAN_POINT('',(-1.54705955010469,-16.4273128279835,0.));
#3070=VERTEX_POINT('',#3060);
#3080=EDGE_CURVE('',#2990,#3070,#3050,.T.);
#3090=ORIENTED_EDGE('',*,*,#3080,.F.);
#3100=CARTESIAN_POINT('',(0.,0.,0.));
#3110=DIRECTION('',(0.,0.,1.));
#3120=DIRECTION('',(1.,0.,0.));
#3130=AXIS2_PLACEMENT_3D('',#3100,#3110,#3120);
#3140=CIRCLE('',#3130,16.5);
#3150=CARTESIAN_POINT('',(1.54705955010468,-16.4273128279835,0.));
#3160=VERTEX_POINT('',#3150);
#3170=EDGE_CURVE('',#3070,#3160,#3140,.T.);
#3180=ORIENTED_EDGE('',*,*,#3170,.F.);
#3190=CARTESIAN_POINT('',(1.54705955010468,-16.4273128279835,0.));
#3200=DIRECTION('',(0.866025403784438,0.5,0.));
#3210=VECTOR('',#3200,1000.);
#3220=LINE('',#3190,#3210);
#3230=CARTESIAN_POINT('',(13.4529404498953,-9.5534492855497,0.));
#3240=VERTEX_POINT('',#3230);
#3250=EDGE_CURVE('',#3160,#3240,#3220,.T.);
#3260=ORIENTED_EDGE('',*,*,#3250,.F.);
#3270=CARTESIAN_POINT('',(0.,0.,0.));
#3280=DIRECTION('',(0.,0.,1.));
#3290=DIRECTION('',(1.,0.,0.));
#3300=AXIS2_PLACEMENT_3D('',#3270,#3280,#3290);
#3310=CIRCLE('',#3300,16.5);
#3320=EDGE_CURVE('',#3240,#2370,#3310,.T.);
#3330=ORIENTED_EDGE('',*,*,#3320,.F.);
#3340=EDGE_LOOP('',(#3330,#3260,#3180,#3090,#3010,#2920,#2840,#2750,
#2670,#2580,#2500,#2410));
#3350=FACE_OUTER_BOUND('',#3340,.T.);
#3360=ADVANCED_FACE('',(#2310,#3350),#2260,.F.);
#3370=CARTESIAN_POINT('',(0.,0.,6.));
#3380=DIRECTION('',(-0.,-0.,-1.));
#3390=DIRECTION('',(-1.,0.,0.));
#3400=AXIS2_PLACEMENT_3D('',#3370,#3380,#3390);
#3410=CYLINDRICAL_SURFACE('',#3400,16.5);
#3420=CARTESIAN_POINT('',(13.4529404498953,-9.5534492855497,6.));
#3430=DIRECTION('',(-0.,-0.,-1.));
#3440=VECTOR('',#3430,1000.);
#3450=LINE('',#3420,#3440);
#3460=EDGE_CURVE('',#1240,#3240,#3450,.T.);
#3470=ORIENTED_EDGE('',*,*,#3460,.T.);
#3480=ORIENTED_EDGE('',*,*,#2170,.F.);
#3490=CARTESIAN_POINT('',(15.,-6.87386354243376,6.));
#3500=DIRECTION('',(-0.,-0.,-1.));
#3510=VECTOR('',#3500,1000.);
#3520=LINE('',#3490,#3510);
#3530=EDGE_CURVE('',#2090,#2370,#3520,.T.);
#3540=ORIENTED_EDGE('',*,*,#3530,.F.);
#3550=ORIENTED_EDGE('',*,*,#3320,.T.);
#3560=EDGE_LOOP('',(#3550,#3540,#3480,#3470));
#3570=FACE_OUTER_BOUND('',#3560,.T.);
#3580=ADVANCED_FACE('',(#3570),#3410,.T.);
#3590=CARTESIAN_POINT('',(15.,-6.87386354243376,6.));
#3600=DIRECTION('',(-1.,0.,0.));
#3610=DIRECTION('',(0.,0.,1.));
#3620=AXIS2_PLACEMENT_3D('',#3590,#3600,#3610);
#3630=PLANE('',#3620);
#3640=ORIENTED_EDGE('',*,*,#3530,.T.);
#3650=ORIENTED_EDGE('',*,*,#2100,.F.);
#3660=CARTESIAN_POINT('',(15.,6.87386354243376,6.));
#3670=DIRECTION('',(-0.,-0.,-1.));
#3680=VECTOR('',#3670,1000.);
#3690=LINE('',#3660,#3680);
#3700=EDGE_CURVE('',#2010,#2390,#3690,.T.);
#3710=ORIENTED_EDGE('',*,*,#3700,.F.);
#3720=ORIENTED_EDGE('',*,*,#2400,.T.);
#3730=EDGE_LOOP('',(#3720,#3710,#3650,#3640));
#3740=FACE_OUTER_BOUND('',#3730,.T.);
#3750=ADVANCED_FACE('',(#3740),#3630,.F.);
#3760=CARTESIAN_POINT('',(0.,0.,6.));
#3770=DIRECTION('',(-0.,-0.,-1.));
#3780=DIRECTION('',(-1.,0.,0.));
#3790=AXIS2_PLACEMENT_3D('',#3760,#3770,#3780);
#3800=CYLINDRICAL_SURFACE('',#3790,16.5);
#3810=ORIENTED_EDGE('',*,*,#3700,.T.);
#3820=ORIENTED_EDGE('',*,*,#2020,.F.);
#3830=CARTESIAN_POINT('',(13.4529404498953,9.55344928554969,6.));
#3840=DIRECTION('',(-0.,-0.,-1.));
#3850=VECTOR('',#3840,1000.);
#3860=LINE('',#3830,#3850);
#3870=EDGE_CURVE('',#1920,#2480,#3860,.T.);
#3880=ORIENTED_EDGE('',*,*,#3870,.F.);
#3890=ORIENTED_EDGE('',*,*,#2490,.T.);
#3900=EDGE_LOOP('',(#3890,#3880,#3820,#3810));
#3910=FACE_OUTER_BOUND('',#3900,.T.);
#3920=ADVANCED_FACE('',(#3910),#3800,.T.);
#3930=CARTESIAN_POINT('',(13.4529404498953,9.55344928554969,6.));
#3940=DIRECTION('',(-0.5,-0.866025403784439,0.));
#3950=DIRECTION('',(0.866025403784439,-0.5,0.));
#3960=AXIS2_PLACEMENT_3D('',#3930,#3940,#3950);
#3970=PLANE('',#3960);
#3980=ORIENTED_EDGE('',*,*,#3870,.T.);
#3990=ORIENTED_EDGE('',*,*,#1930,.F.);
#4000=CARTESIAN_POINT('',(1.54705955010466,16.4273128279835,6.));
#4010=DIRECTION('',(-0.,-0.,-1.));
#4020=VECTOR('',#4010,1000.);
#4030=LINE('',#4000,#4020);
#4040=EDGE_CURVE('',#1840,#2560,#4030,.T.);
#4050=ORIENTED_EDGE('',*,*,#4040,.F.);
#4060=ORIENTED_EDGE('',*,*,#2570,.T.);
#4070=EDGE_LOOP('',(#4060,#4050,#3990,#3980));
#4080=FACE_OUTER_BOUND('',#4070,.T.);
#4090=ADVANCED_FACE('',(#4080),#3970,.F.);
#4100=CARTESIAN_POINT('',(0.,0.,6.));
#4110=DIRECTION('',(-0.,-0.,-1.));
#4120=DIRECTION('',(-1.,0.,0.));
#4130=AXIS2_PLACEMENT_3D('',#4100,#4110,#4120);
#4140=CYLINDRICAL_SURFACE('',#4130,16.5);
#4150=ORIENTED_EDGE('',*,*,#4040,.T.);
#4160=ORIENTED_EDGE('',*,*,#1850,.F.);
#4170=CARTESIAN_POINT('',(-1.54705955010466,16.4273128279835,6.));
#4180=DIRECTION('',(-0.,-0.,-1.));
#4190=VECTOR('',#4180,1000.);
#4200=LINE('',#4170,#4190);
#4210=EDGE_CURVE('',#1750,#2650,#4200,.T.);
#4220=ORIENTED_EDGE('',*,*,#4210,.F.);
#4230=ORIENTED_EDGE('',*,*,#2660,.T.);
#4240=EDGE_LOOP('',(#4230,#4220,#4160,#4150));
#4250=FACE_OUTER_BOUND('',#4240,.T.);
#4260=ADVANCED_FACE('',(#4250),#4140,.T.);
#4270=CARTESIAN_POINT('',(-1.54705955010466,16.4273128279835,6.));
#4280=DIRECTION('',(0.5,-0.866025403784439,0.));
#4290=DIRECTION('',(0.866025403784439,0.5,0.));
#4300=AXIS2_PLACEMENT_3D('',#4270,#4280,#4290);
#4310=PLANE('',#4300);
#4320=ORIENTED_EDGE('',*,*,#4210,.T.);
#4330=ORIENTED_EDGE('',*,*,#1760,.F.);
#4340=CARTESIAN_POINT('',(-13.4529404498953,9.55344928554969,6.));
#4350=DIRECTION('',(-0.,-0.,-1.));
#4360=VECTOR('',#4350,1000.);
#4370=LINE('',#4340,#4360);
#4380=EDGE_CURVE('',#1670,#2730,#4370,.T.);
#4390=ORIENTED_EDGE('',*,*,#4380,.F.);
#4400=ORIENTED_EDGE('',*,*,#2740,.T.);
#4410=EDGE_LOOP('',(#4400,#4390,#4330,#4320));
#4420=FACE_OUTER_BOUND('',#4410,.T.);
#4430=ADVANCED_FACE('',(#4420),#4310,.F.);
#4440=CARTESIAN_POINT('',(0.,0.,6.));
#4450=DIRECTION('',(-0.,-0.,-1.));
#4460=DIRECTION('',(-1.,0.,0.));
#4470=AXIS2_PLACEMENT_3D('',#4440,#4450,#4460);
#4480=CYLINDRICAL_SURFACE('',#4470,16.5);
#4490=ORIENTED_EDGE('',*,*,#4380,.T.);
#4500=ORIENTED_EDGE('',*,*,#1680,.F.);
#4510=CARTESIAN_POINT('',(-15.,6.87386354243377,6.));
#4520=DIRECTION('',(-0.,-0.,-1.));
#4530=VECTOR('',#4520,1000.);
#4540=LINE('',#4510,#4530);
#4550=EDGE_CURVE('',#1580,#2820,#4540,.T.);
#4560=ORIENTED_EDGE('',*,*,#4550,.F.);
#4570=ORIENTED_EDGE('',*,*,#2830,.T.);
#4580=EDGE_LOOP('',(#4570,#4560,#4500,#4490));
#4590=FACE_OUTER_BOUND('',#4580,.T.);
#4600=ADVANCED_FACE('',(#4590),#4480,.T.);
#4610=CARTESIAN_POINT('',(-15.,6.87386354243377,6.));
#4620=DIRECTION('',(1.,0.,-0.));
#4630=DIRECTION('',(-0.,0.,-1.));
#4640=AXIS2_PLACEMENT_3D('',#4610,#4620,#4630);
#4650=PLANE('',#4640);
#4660=ORIENTED_EDGE('',*,*,#4550,.T.);
#4670=ORIENTED_EDGE('',*,*,#1590,.F.);
#4680=CARTESIAN_POINT('',(-15.,-6.87386354243377,6.));
#4690=DIRECTION('',(-0.,-0.,-1.));
#4700=VECTOR('',#4690,1000.);
#4710=LINE('',#4680,#4700);
#4720=EDGE_CURVE('',#1500,#2900,#4710,.T.);
#4730=ORIENTED_EDGE('',*,*,#4720,.F.);
#4740=ORIENTED_EDGE('',*,*,#2910,.T.);
#4750=EDGE_LOOP('',(#4740,#4730,#4670,#4660));
#4760=FACE_OUTER_BOUND('',#4750,.T.);
#4770=ADVANCED_FACE('',(#4760),#4650,.F.);
#4780=CARTESIAN_POINT('',(0.,0.,6.));
#4790=DIRECTION('',(-0.,-0.,-1.));
#4800=DIRECTION('',(-1.,0.,0.));
#4810=AXIS2_PLACEMENT_3D('',#4780,#4790,#4800);
#4820=CYLINDRICAL_SURFACE('',#4810,16.5);
#4830=ORIENTED_EDGE('',*,*,#4720,.T.);
#4840=ORIENTED_EDGE('',*,*,#1510,.F.);
#4850=CARTESIAN_POINT('',(-13.4529404498953,-9.55344928554972,6.));
#4860=DIRECTION('',(-0.,-0.,-1.));
#4870=VECTOR('',#4860,1000.);
#4880=LINE('',#4850,#4870);
#4890=EDGE_CURVE('',#1410,#2990,#4880,.T.);
#4900=ORIENTED_EDGE('',*,*,#4890,.F.);
#4910=ORIENTED_EDGE('',*,*,#3000,.T.);
#4920=EDGE_LOOP('',(#4910,#4900,#4840,#4830));
#4930=FACE_OUTER_BOUND('',#4920,.T.);
#4940=ADVANCED_FACE('',(#4930),#4820,.T.);
#4950=CARTESIAN_POINT('',(-13.4529404498953,-9.55344928554972,6.));
#4960=DIRECTION('',(0.5,0.866025403784439,-0.));
#4970=DIRECTION('',(-0.866025403784439,0.5,0.));
#4980=AXIS2_PLACEMENT_3D('',#4950,#4960,#4970);
#4990=PLANE('',#4980);
#5000=ORIENTED_EDGE('',*,*,#4890,.T.);
#5010=ORIENTED_EDGE('',*,*,#1420,.F.);
#5020=CARTESIAN_POINT('',(-1.54705955010469,-16.4273128279835,6.));
#5030=DIRECTION('',(-0.,-0.,-1.));
#5040=VECTOR('',#5030,1000.);
#5050=LINE('',#5020,#5040);
#5060=EDGE_CURVE('',#1330,#3070,#5050,.T.);
#5070=ORIENTED_EDGE('',*,*,#5060,.F.);
#5080=ORIENTED_EDGE('',*,*,#3080,.T.);
#5090=EDGE_LOOP('',(#5080,#5070,#5010,#5000));
#5100=FACE_OUTER_BOUND('',#5090,.T.);
#5110=ADVANCED_FACE('',(#5100),#4990,.F.);
#5120=CARTESIAN_POINT('',(0.,0.,6.));
#5130=DIRECTION('',(-0.,-0.,-1.));
#5140=DIRECTION('',(-1.,0.,0.));
#5150=AXIS2_PLACEMENT_3D('',#5120,#5130,#5140);
#5160=CYLINDRICAL_SURFACE('',#5150,16.5);
#5170=ORIENTED_EDGE('',*,*,#5060,.T.);
#5180=ORIENTED_EDGE('',*,*,#1340,.F.);
#5190=CARTESIAN_POINT('',(1.54705955010468,-16.4273128279835,6.));
#5200=DIRECTION('',(-0.,-0.,-1.));
#5210=VECTOR('',#5200,1000.);
#5220=LINE('',#5190,#5210);
#5230=EDGE_CURVE('',#1220,#3160,#5220,.T.);
#5240=ORIENTED_EDGE('',*,*,#5230,.F.);
#5250=ORIENTED_EDGE('',*,*,#3170,.T.);
#5260=EDGE_LOOP('',(#5250,#5240,#5180,#5170));
#5270=FACE_OUTER_BOUND('',#5260,.T.);
#5280=ADVANCED_FACE('',(#5270),#5160,.T.);
#5290=CARTESIAN_POINT('',(1.54705955010468,-16.4273128279835,6.));
#5300=DIRECTION('',(-0.5,0.866025403784438,0.));
#5310=DIRECTION('',(-0.866025403784438,-0.5,0.));
#5320=AXIS2_PLACEMENT_3D('',#5290,#5300,#5310);
#5330=PLANE('',#5320);
#5340=ORIENTED_EDGE('',*,*,#5230,.T.);
#5350=ORIENTED_EDGE('',*,*,#1250,.F.);
#5360=ORIENTED_EDGE('',*,*,#3460,.F.);
#5370=ORIENTED_EDGE('',*,*,#3250,.T.);
#5380=EDGE_LOOP('',(#5370,#5360,#5350,#5340));
#5390=FACE_OUTER_BOUND('',#5380,.T.);
#5400=ADVANCED_FACE('',(#5390),#5330,.F.);
#5410=CARTESIAN_POINT('',(0.,0.,0.));
#5420=DIRECTION('',(0.,0.,-1.));
#5430=DIRECTION('',(-1.,0.,-0.));
#5440=AXIS2_PLACEMENT_3D('',#5410,#5420,#5430);
#5450=CONICAL_SURFACE('',#5440,12.8,0.785398163397444);
#5460=ORIENTED_EDGE('',*,*,#560,.T.);
#5470=EDGE_CURVE('',#530,#720,#790,.T.);
#5480=ORIENTED_EDGE('',*,*,#5470,.F.);
#5490=ORIENTED_EDGE('',*,*,#730,.F.);
#5500=ORIENTED_EDGE('',*,*,#2280,.F.);
#5510=EDGE_LOOP('',(#5500,#5490,#5480,#5460));
#5520=FACE_OUTER_BOUND('',#5510,.T.);
#5530=ADVANCED_FACE('',(#5520),#5450,.F.);
#5540=CARTESIAN_POINT('',(0.,0.,6.));
#5550=DIRECTION('',(-0.,-0.,-1.));
#5560=DIRECTION('',(-1.,0.,0.));
#5570=AXIS2_PLACEMENT_3D('',#5540,#5550,#5560);
#5580=CYLINDRICAL_SURFACE('',#5570,11.8);
#5590=ORIENTED_EDGE('',*,*,#5470,.T.);
#5600=ORIENTED_EDGE('',*,*,#1010,.T.);
#5610=EDGE_CURVE('',#110,#300,#370,.T.);
#5620=ORIENTED_EDGE('',*,*,#5610,.T.);
#5630=ORIENTED_EDGE('',*,*,#940,.F.);
#5640=EDGE_LOOP('',(#5630,#5620,#5600,#5590));
#5650=FACE_OUTER_BOUND('',#5640,.T.);
#5660=ADVANCED_FACE('',(#5650),#5580,.F.);
#5670=CARTESIAN_POINT('',(0.,0.,4.99999999999998));
#5680=DIRECTION('',(0.,0.,1.));
#5690=DIRECTION('',(1.,0.,-0.));
#5700=AXIS2_PLACEMENT_3D('',#5670,#5680,#5690);
#5710=CONICAL_SURFACE('',#5700,11.8,0.785398163397444);
#5720=ORIENTED_EDGE('',*,*,#1120,.F.);
#5730=ORIENTED_EDGE('',*,*,#140,.T.);
#5740=ORIENTED_EDGE('',*,*,#5610,.F.);
#5750=ORIENTED_EDGE('',*,*,#310,.F.);
#5760=EDGE_LOOP('',(#5750,#5740,#5730,#5720));
#5770=FACE_OUTER_BOUND('',#5760,.T.);
#5780=ADVANCED_FACE('',(#5770),#5710,.F.);
#5790=CLOSED_SHELL('',(#420,#840,#1060,#2210,#3360,#3580,#3750,#3920,
#4090,#4260,#4430,#4600,#4770,#4940,#5110,#5280,#5400,#5530,#5660,#5780)
);
#5800=MANIFOLD_SOLID_BREP('',#5790);
#5810=CARTESIAN_POINT('',(0.,0.,0.));
#5820=DIRECTION('',(0.,0.,1.));
#5830=DIRECTION('',(1.,0.,0.));
#5840=AXIS2_PLACEMENT_3D('',#5810,#5820,#5830);
#5850=APPLICATION_CONTEXT(' ');
#5860=APPLICATION_PROTOCOL_DEFINITION(' ','automotive_design',1998,#5850
);
#5870=PRODUCT_CONTEXT('',#5850,'mechanical');
#5880=PRODUCT_DEFINITION_CONTEXT('part definition',#5850,'design');
#5890=PRODUCT('AS_M25L','AS_M25L','',(#5870));
#5900=PRODUCT_RELATED_PRODUCT_CATEGORY('part',' ',(#5890));
#5910=PRODUCT_DEFINITION_FORMATION_WITH_SPECIFIED_SOURCE('','',#5890,
.BOUGHT.);
#5920=PRODUCT_DEFINITION('',' ',#5910,#5880);
#5930=PRODUCT_DEFINITION_SHAPE('','',#5920);
#5940=DIMENSIONAL_EXPONENTS(1.,0.,0.,0.,0.,0.,0.);
#5950=DIMENSIONAL_EXPONENTS(0.,0.,0.,0.,0.,0.,0.);
#5960=DIMENSIONAL_EXPONENTS(0.,0.,0.,0.,0.,0.,0.);
#5970=(LENGTH_UNIT() NAMED_UNIT(*) SI_UNIT(.MILLI.,.METRE.));
#5980=(NAMED_UNIT(*) PLANE_ANGLE_UNIT() SI_UNIT($,.RADIAN.));
#5990=(NAMED_UNIT(*) SI_UNIT($,.STERADIAN.) SOLID_ANGLE_UNIT());
#6000=(GEOMETRIC_REPRESENTATION_CONTEXT(3) 
GLOBAL_UNCERTAINTY_ASSIGNED_CONTEXT((#6010)) 
GLOBAL_UNIT_ASSIGNED_CONTEXT((#5970,#5980,#5990)) REPRESENTATION_CONTEXT
('',''));
#6010=UNCERTAINTY_MEASURE_WITH_UNIT(LENGTH_MEASURE(1.E-6),#5970,
'distance_accuracy_value','maximum gap value');
#6020=ADVANCED_BREP_SHAPE_REPRESENTATION('',(#5840,#5800),#6000);
#6030=SHAPE_DEFINITION_REPRESENTATION(#5930,#6020);
#6040=COLOUR_RGB('',0.600000023841858,0.600000023841858,
0.600000023841858);
#6050=FILL_AREA_STYLE_COLOUR('',#6040);
#6060=FILL_AREA_STYLE('',(#6050));
#6070=SURFACE_STYLE_FILL_AREA(#6060);
#6080=SURFACE_SIDE_STYLE('',(#6070));
#6090=SURFACE_STYLE_USAGE(.BOTH.,#6080);
#6100=PRESENTATION_STYLE_ASSIGNMENT((#6090));
#6110=STYLED_ITEM('',(#6100),#5800);
#6120=DRAUGHTING_MODEL('',(#6110),#6000);
ENDSEC;
END-ISO-10303-21;
